  0
SECTION
  2
HEADER
  9
$ACADVER
  1
AC1015
  9
$ACADMAINTVER
 70
     6
  9
$DWGCODEPAGE
  3
ANSI_1254
  9
$INSBASE
 10
0.0
 20
0.0
 30
0.0
  9
$EXTMIN
 10
0.0
 20
0.0
 30
0.0
  9
$EXTMAX
 10
279.4
 20
215.9
 30
0.0
  9
$LIMMIN
 10
0.0
 20
0.0
  9
$LIMMAX
 10
279.4
 20
215.9
  9
$ORTHOMODE
 70
     0
  9
$REGENMODE
 70
     1
  9
$FILLMODE
 70
     1
  9
$QTEXTMODE
 70
     0
  9
$MIRRTEXT
 70
     1
  9
$LTSCALE
 40
1.0
  9
$ATTMODE
 70
     1
  9
$TEXTSIZE
 40
3.5
  9
$TRACEWID
 40
1.0
  9
$TEXTSTYLE
  7
Standard
  9
$CLAYER
  8
0
  9
$CELTYPE
  6
ByLayer
  9
$CECOLOR
 62
   256
  9
$CELTSCALE
 40
1.0
  9
$DISPSILH
 70
     0
  9
$DIMSCALE
 40
1.0
  9
$DIMASZ
 40
3.5
  9
$DIMEXO
 40
1.0
  9
$DIMDLI
 40
3.75
  9
$DIMRND
 40
0.0
  9
$DIMDLE
 40
0.0
  9
$DIMEXE
 40
1.0
  9
$DIMTP
 40
0.0
  9
$DIMTM
 40
0.0
  9
$DIMTXT
 40
3.5
  9
$DIMCEN
 40
2.5
  9
$DIMTSZ
 40
0.0
  9
$DIMTOL
 70
     0
  9
$DIMLIM
 70
     0
  9
$DIMTIH
 70
     1
  9
$DIMTOH
 70
     1
  9
$DIMSE1
 70
     0
  9
$DIMSE2
 70
     0
  9
$DIMTAD
 70
     1
  9
$DIMZIN
 70
     0
  9
$DIMBLK
  1

  9
$DIMASO
 70
     1
  9
$DIMSHO
 70
     1
  9
$DIMPOST
  1

  9
$DIMAPOST
  1

  9
$DIMALT
 70
     0
  9
$DIMALTD
 70
     3
  9
$DIMALTF
 40
0.0393700787
  9
$DIMLFAC
 40
1.0
  9
$DIMTOFL
 70
     1
  9
$DIMTVP
 40
0.0
  9
$DIMTIX
 70
     0
  9
$DIMSOXD
 70
     0
  9
$DIMSAH
 70
     0
  9
$DIMBLK1
  1

  9
$DIMBLK2
  1

  9
$DIMSTYLE
  2
ISO-25
  9
$DIMCLRD
 70
     0
  9
$DIMCLRE
 70
     0
  9
$DIMCLRT
 70
     0
  9
$DIMTFAC
 40
1.0
  9
$DIMGAP
 40
1.524
  9
$DIMJUST
 70
     0
  9
$DIMSD1
 70
     0
  9
$DIMSD2
 70
     0
  9
$DIMTOLJ
 70
     0
  9
$DIMTZIN
 70
     0
  9
$DIMALTZ
 70
     0
  9
$DIMALTTZ
 70
     0
  9
$DIMUPT
 70
     0
  9
$DIMDEC
 70
     2
  9
$DIMTDEC
 70
     2
  9
$DIMALTU
 70
     2
  9
$DIMALTTD
 70
     3
  9
$DIMTXSTY
  7
Standard
  9
$DIMAUNIT
 70
     0
  9
$DIMADEC
 70
     2
  9
$DIMALTRND
 40
0.0
  9
$DIMAZIN
 70
     0
  9
$DIMDSEP
 70
    44
  9
$DIMATFIT
 70
     3
  9
$DIMFRAC
 70
     0
  9
$DIMLDRBLK
  1

  9
$DIMLUNIT
 70
     2
  9
$DIMLWD
 70
    -2
  9
$DIMLWE
 70
    -2
  9
$DIMTMOVE
 70
     0
  9
$LUNITS
 70
     2
  9
$LUPREC
 70
     2
  9
$SKETCHINC
 40
1.0
  9
$FILLETRAD
 40
10.0
  9
$AUNITS
 70
     0
  9
$AUPREC
 70
     2
  9
$MENU
  1
.
  9
$ELEVATION
 40
0.0
  9
$PELEVATION
 40
0.0
  9
$THICKNESS
 40
0.0
  9
$LIMCHECK
 70
     0
  9
$CHAMFERA
 40
0.0
  9
$CHAMFERB
 40
0.0
  9
$CHAMFERC
 40
0.0
  9
$CHAMFERD
 40
0.0
  9
$SKPOLY
 70
     0
  9
$TDCREATE
 40
2458985.650945428
  9
$TDUCREATE
 40
2458985.525945428
  9
$TDUPDATE
 40
2458985.650945741
  9
$TDUUPDATE
 40
2458985.525945741
  9
$TDINDWG
 40
0.0000000116
  9
$TDUSRTIMER
 40
0.0000000116
  9
$USRTIMER
 70
     1
  9
$ANGBASE
 50
0.0
  9
$ANGDIR
 70
     0
  9
$PDMODE
 70
     0
  9
$PDSIZE
 40
-1.0
  9
$PLINEWID
 40
0.0
  9
$SPLFRAME
 70
     0
  9
$SPLINETYPE
 70
     6
  9
$SPLINESEGS
 70
     8
  9
$HANDSEED
  5
CC
  9
$SURFTAB1
 70
     6
  9
$SURFTAB2
 70
     6
  9
$SURFTYPE
 70
     6
  9
$SURFU
 70
     6
  9
$SURFV
 70
     6
  9
$UCSBASE
  2

  9
$UCSNAME
  2

  9
$UCSORG
 10
0.0
 20
0.0
 30
0.0
  9
$UCSXDIR
 10
1.0
 20
0.0
 30
0.0
  9
$UCSYDIR
 10
0.0
 20
1.0
 30
0.0
  9
$UCSORTHOREF
  2

  9
$UCSORTHOVIEW
 70
     0
  9
$UCSORGTOP
 10
0.0
 20
0.0
 30
0.0
  9
$UCSORGBOTTOM
 10
0.0
 20
0.0
 30
0.0
  9
$UCSORGLEFT
 10
0.0
 20
0.0
 30
0.0
  9
$UCSORGRIGHT
 10
0.0
 20
0.0
 30
0.0
  9
$UCSORGFRONT
 10
0.0
 20
0.0
 30
0.0
  9
$UCSORGBACK
 10
0.0
 20
0.0
 30
0.0
  9
$PUCSBASE
  2

  9
$PUCSNAME
  2

  9
$PUCSORG
 10
0.0
 20
0.0
 30
0.0
  9
$PUCSXDIR
 10
1.0
 20
0.0
 30
0.0
  9
$PUCSYDIR
 10
0.0
 20
1.0
 30
0.0
  9
$PUCSORTHOREF
  2

  9
$PUCSORTHOVIEW
 70
     0
  9
$PUCSORGTOP
 10
0.0
 20
0.0
 30
0.0
  9
$PUCSORGBOTTOM
 10
0.0
 20
0.0
 30
0.0
  9
$PUCSORGLEFT
 10
0.0
 20
0.0
 30
0.0
  9
$PUCSORGRIGHT
 10
0.0
 20
0.0
 30
0.0
  9
$PUCSORGFRONT
 10
0.0
 20
0.0
 30
0.0
  9
$PUCSORGBACK
 10
0.0
 20
0.0
 30
0.0
  9
$USERI1
 70
     0
  9
$USERI2
 70
     0
  9
$USERI3
 70
     0
  9
$USERI4
 70
     0
  9
$USERI5
 70
     0
  9
$USERR1
 40
0.0
  9
$USERR2
 40
0.0
  9
$USERR3
 40
0.0
  9
$USERR4
 40
0.0
  9
$USERR5
 40
0.0
  9
$WORLDVIEW
 70
     1
  9
$SHADEDGE
 70
     3
  9
$SHADEDIF
 70
    70
  9
$TILEMODE
 70
     1
  9
$MAXACTVP
 70
    64
  9
$PINSBASE
 10
0.0
 20
0.0
 30
0.0
  9
$PLIMCHECK
 70
     0
  9
$PEXTMIN
 10
1.0000000000E+20
 20
1.0000000000E+20
 30
1.0000000000E+20
  9
$PEXTMAX
 10
-1.0000000000E+20
 20
-1.0000000000E+20
 30
-1.0000000000E+20
  9
$PLIMMIN
 10
0.0
 20
0.0
  9
$PLIMMAX
 10
420.0
 20
297.0
  9
$UNITMODE
 70
     0
  9
$VISRETAIN
 70
     1
  9
$PLINEGEN
 70
     0
  9
$PSLTSCALE
 70
     1
  9
$TREEDEPTH
 70
  3020
  9
$CMLSTYLE
  2
Standard
  9
$CMLJUST
 70
     0
  9
$CMLSCALE
 40
20.0
  9
$PROXYGRAPHICS
 70
     1
  9
$MEASUREMENT
 70
     1
  9
$CELWEIGHT
370
    -1
  9
$ENDCAPS
280
     0
  9
$JOINSTYLE
280
     0
  9
$LWDISPLAY
290
     1
  9
$INSUNITS
 70
     4
  9
$HYPERLINKBASE
  1

  9
$STYLESHEET
  1

  9
$XEDIT
290
     1
  9
$CEPSNTYPE
380
     0
  9
$PSTYLEMODE
290
     1
  9
$FINGERPRINTGUID
  2
{08987d9a-5ae5-4100-b243-c28fda23919c}
  9
$VERSIONGUID
  2
{FAEB1C32-E019-11D5-929B-00C0DF256EC4}
  9
$EXTNAMES
290
     1
  9
$PSVPSCALE
 40
0.0
  9
$OLESTARTUP
290
     0
  0
ENDSEC
  0
SECTION
  2
CLASSES
  0
CLASS
  1
ACDBDICTIONARYWDFLT
  2
AcDbDictionaryWithDefault
  3
ObjectDBX Classes
 90
        0
280
     0
281
     0
  0
CLASS
  1
VISUALSTYLE
  2
AcDbVisualStyle
  3
ObjectDBX Classes
 90
     4095
280
     0
281
     0
  0
CLASS
  1
MATERIAL
  2
AcDbMaterial
  3
ObjectDBX Classes
 90
     1153
280
     0
281
     0
  0
CLASS
  1
SCALE
  2
AcDbScale
  3
ObjectDBX Classes
 90
     1153
280
     0
281
     0
  0
CLASS
  1
TABLESTYLE
  2
AcDbTableStyle
  3
ObjectDBX Classes
 90
     4095
280
     0
281
     0
  0
CLASS
  1
MLEADERSTYLE
  2
AcDbMLeaderStyle
  3
ACDB_MLEADERSTYLE_CLASS
 90
     4095
280
     0
281
     0
  0
CLASS
  1
SUN
  2
AcDbSun
  3
SCENEOE
 90
     1153
280
     0
281
     0
  0
CLASS
  1
ACDBPLACEHOLDER
  2
AcDbPlaceHolder
  3
ObjectDBX Classes
 90
        0
280
     0
281
     0
  0
CLASS
  1
LAYOUT
  2
AcDbLayout
  3
ObjectDBX Classes
 90
        0
280
     0
281
     0
  0
ENDSEC
  0
SECTION
  2
TABLES
  0
TABLE
  2
VPORT
  5
8
330
0
100
AcDbSymbolTable
 70
     1
  0
VPORT
  5
29
330
8
100
AcDbSymbolTableRecord
100
AcDbViewportTableRecord
  2
*Active
 70
     0
 10
0.0
 20
0.0
 11
1.0
 21
1.0
 12
139.7
 22
107.95
 13
0.0
 23
0.0
 14
10.0
 24
10.0
 15
10.0
 25
10.0
 16
0.0
 26
0.0
 36
1.0
 17
0.0
 27
0.0
 37
0.0
 40
215.9
 41
1.2941176471
 42
50.0
 43
0.0
 44
0.0
 50
0.0
 51
0.0
 71
     0
 72
  2000
 73
     1
 74
     3
 75
     0
 76
     0
 77
     0
 78
     0
281
     0
 65
     1
110
0.0
120
0.0
130
0.0
111
1.0
121
0.0
131
0.0
112
0.0
122
1.0
132
0.0
 79
     0
146
0.0
  0
ENDTAB
  0
TABLE
  2
LTYPE
  5
5
330
0
100
AcDbSymbolTable
 70
     6
  0
LTYPE
  5
14
330
5
100
AcDbSymbolTableRecord
100
AcDbLinetypeTableRecord
  2
ByBlock
 70
     0
  3

 72
    65
 73
     0
 40
0.0
  0
LTYPE
  5
15
330
5
100
AcDbSymbolTableRecord
100
AcDbLinetypeTableRecord
  2
ByLayer
 70
     0
  3

 72
    65
 73
     0
 40
0.0
  0
LTYPE
  5
16
330
5
100
AcDbSymbolTableRecord
100
AcDbLinetypeTableRecord
  2
Continuous
 70
     0
  3
Solid line
 72
    65
 73
     0
 40
0.0
  0
LTYPE
  5
6E
330
5
100
AcDbSymbolTableRecord
100
AcDbLinetypeTableRecord
  2
HIDDEN
 70
     0
  3
Hidden __ __ __ __ __ __ __ __ __ __ __ __ __ __
 72
    65
 73
     2
 40
1.905
 49
1.27
 74
     0
 49
-0.635
 74
     0
  0
LTYPE
  5
6F
330
5
100
AcDbSymbolTableRecord
100
AcDbLinetypeTableRecord
  2
PHANTOM
 70
     0
  3
Phantom ______  __  __  ______  __  __  ______
 72
    65
 73
     6
 40
12.7
 49
6.35
 74
     0
 49
-1.27
 74
     0
 49
1.27
 74
     0
 49
-1.27
 74
     0
 49
1.27
 74
     0
 49
-1.27
 74
     0
  0
LTYPE
  5
70
330
5
100
AcDbSymbolTableRecord
100
AcDbLinetypeTableRecord
  2
CENTER
 70
     0
  3
Center ____ _ ____ _ ____ _ ____ _ ____ _ ____
 72
    65
 73
     4
 40
10.16
 49
6.35
 74
     0
 49
-1.27
 74
     0
 49
1.27
 74
     0
 49
-1.27
 74
     0
  0
LTYPE
  5
71
330
5
100
AcDbSymbolTableRecord
100
AcDbLinetypeTableRecord
  2
CENTERX2
 70
     0
  3
Center (2x) ________  __  ________  __  _____
 72
    65
 73
     4
 40
20.32
 49
12.7
 74
     0
 49
-2.54
 74
     0
 49
2.54
 74
     0
 49
-2.54
 74
     0
  0
LTYPE
  5
72
330
5
100
AcDbSymbolTableRecord
100
AcDbLinetypeTableRecord
  2
DOT2
 70
     0
  3
Dot (.5x) ........................................
 72
    65
 73
     2
 40
0.635
 49
0.0
 74
     0
 49
-0.635
 74
     0
  0
ENDTAB
  0
TABLE
  2
LAYER
  5
2
330
0
100
AcDbSymbolTable
 70
    17
  0
LAYER
  5
10
330
2
100
AcDbSymbolTableRecord
100
AcDbLayerTableRecord
  2
0
 70
     0
 62
     7
  6
Continuous
370
    -3
390
F
  0
LAYER
  5
73
330
2
100
AcDbSymbolTableRecord
100
AcDbLayerTableRecord
  2
FORMAT
 70
     0
 62
     7
  6
Continuous
370
    -3
390
F
  0
LAYER
  5
74
330
2
100
AcDbSymbolTableRecord
100
AcDbLayerTableRecord
  2
YARDIMCI_GEOMETRI
 70
     0
 62
    -6
  6
Continuous
290
     0
370
    -3
390
F
  0
LAYER
  5
75
330
2
100
AcDbSymbolTableRecord
100
AcDbLayerTableRecord
  2
SAYFA_CERCEVESI
 70
     0
 62
     7
  6
Continuous
370
    25
390
F
  0
LAYER
  5
76
330
2
100
AcDbSymbolTableRecord
100
AcDbLayerTableRecord
  2
ANTET
 70
     0
 62
     7
  6
Continuous
370
    -3
390
F
  0
LAYER
  5
77
330
2
100
AcDbSymbolTableRecord
100
AcDbLayerTableRecord
  2
OLCU
 70
     0
 62
   150
  6
Continuous
370
    -3
390
F
  0
LAYER
  5
78
330
2
100
AcDbSymbolTableRecord
100
AcDbLayerTableRecord
  2
METIN
 70
     0
 62
    96
  6
Continuous
370
    -3
390
F
  0
LAYER
  5
79
330
2
100
AcDbSymbolTableRecord
100
AcDbLayerTableRecord
  2
BALON
 70
     0
 62
     5
  6
Continuous
370
    -3
390
F
  0
LAYER
  5
7A
330
2
100
AcDbSymbolTableRecord
100
AcDbLayerTableRecord
  2
VURGU
 70
     0
 62
     7
  6
Continuous
370
    -3
390
F
  0
LAYER
  5
7B
330
2
100
AcDbSymbolTableRecord
100
AcDbLayerTableRecord
  2
SILIK
 70
     0
 62
     7
  6
Continuous
370
    -3
390
F
  0
LAYER
  5
7C
330
2
100
AcDbSymbolTableRecord
100
AcDbLayerTableRecord
  2
MODEL
 70
     0
 62
     7
  6
Continuous
370
    -3
390
F
  0
LAYER
  5
7D
330
2
100
AcDbSymbolTableRecord
100
AcDbLayerTableRecord
  2
DETAYLANDıRMA
 70
     0
 62
   190
  6
Continuous
370
    -3
390
F
  0
LAYER
  5
7E
330
2
100
AcDbSymbolTableRecord
100
AcDbLayerTableRecord
  2
TOLERANS
 70
     0
 62
   230
  6
Continuous
370
    -3
390
F
  0
LAYER
  5
7F
330
2
100
AcDbSymbolTableRecord
100
AcDbLayerTableRecord
  2
MERKEZ_CIZGILERI
 70
     0
 62
    30
  6
Continuous
370
    -3
390
F
  0
LAYER
  5
80
330
2
100
AcDbSymbolTableRecord
100
AcDbLayerTableRecord
  2
KESIT-DETAY_CIZGILERI
 70
     0
 62
     7
  6
Continuous
370
    -3
390
F
  0
LAYER
  5
81
330
2
100
AcDbSymbolTableRecord
100
AcDbLayerTableRecord
  2
\U+041E\U+0421\U+0415\U+0412\U+042B\U+0415
 70
     0
 62
     7
  6
Continuous
370
    -3
390
F
  0
LAYER
  5
82
330
2
100
AcDbSymbolTableRecord
100
AcDbLayerTableRecord
  2
\U+0412\U+041E\U+0414\U+042F\U+041D\U+042B\U+0415_\U+0417\U+041D\U+0410\U+041A\U+0418
 70
     0
 62
    11
  6
Continuous
370
    -3
390
F
  0
ENDTAB
  0
TABLE
  2
STYLE
  5
3
330
0
100
AcDbSymbolTable
 70
     1
  0
STYLE
  5
11
330
3
100
AcDbSymbolTableRecord
100
AcDbTextStyleTableRecord
  2
Standard
 70
     0
 40
0.0
 41
1.0
 50
0.0
 71
     0
 42
3.5
  3
txt
  4

  0
ENDTAB
  0
TABLE
  2
VIEW
  5
6
330
0
100
AcDbSymbolTable
 70
     0
  0
ENDTAB
  0
TABLE
  2
UCS
  5
7
330
0
100
AcDbSymbolTable
 70
     0
  0
ENDTAB
  0
TABLE
  2
APPID
  5
9
330
0
100
AcDbSymbolTable
 70
     1
  0
APPID
  5
12
330
9
100
AcDbSymbolTableRecord
100
AcDbRegAppTableRecord
  2
ACAD
 70
     0
  0
ENDTAB
  0
TABLE
  2
DIMSTYLE
  5
A
330
0
100
AcDbSymbolTable
 70
     1
100
AcDbDimStyleTable
  0
DIMSTYLE
105
27
330
A
100
AcDbSymbolTableRecord
100
AcDbDimStyleTableRecord
  2
ISO-25
 70
     0
 41
2.5
 42
0.625
 43
3.75
 44
1.25
 73
     0
 74
     0
 77
     1
 78
     8
140
2.5
141
2.5
143
0.0393700787
147
0.625
171
     3
172
     1
178
     0
271
     2
272
     2
274
     3
278
    44
283
     0
284
     8
340
11
  0
ENDTAB
  0
TABLE
  2
BLOCK_RECORD
  5
1
330
0
100
AcDbSymbolTable
 70
     2
  0
BLOCK_RECORD
  5
1F
330
1
100
AcDbSymbolTableRecord
100
AcDbBlockTableRecord
  2
*Model_Space
340
22
  0
BLOCK_RECORD
  5
1B
330
1
100
AcDbSymbolTableRecord
100
AcDbBlockTableRecord
  2
*Paper_Space
340
1E
  0
BLOCK_RECORD
  5
23
330
1
100
AcDbSymbolTableRecord
100
AcDbBlockTableRecord
  2
*Paper_Space0
340
26
  0
BLOCK_RECORD
  5
87
330
1
100
AcDbSymbolTableRecord
100
AcDbBlockTableRecord
  2
SW_CENTERMARKSYMBOL_0
340
0
102
{BLKREFS
331
92
102
}
  0
ENDTAB
  0
ENDSEC
  0
SECTION
  2
BLOCKS
  0
BLOCK
  5
20
330
1F
100
AcDbEntity
  8
0
100
AcDbBlockBegin
  2
*Model_Space
 70
     0
 10
0.0
 20
0.0
 30
0.0
  3
*Model_Space
  1

  0
ENDBLK
  5
21
330
1F
100
AcDbEntity
  8
0
100
AcDbBlockEnd
  0
BLOCK
  5
1C
330
1B
100
AcDbEntity
 67
     1
  8
0
100
AcDbBlockBegin
  2
*Paper_Space
 70
     0
 10
0.0
 20
0.0
 30
0.0
  3
*Paper_Space
  1

  0
ENDBLK
  5
1D
330
1B
100
AcDbEntity
 67
     1
  8
0
100
AcDbBlockEnd
  0
BLOCK
  5
24
330
23
100
AcDbEntity
  8
0
100
AcDbBlockBegin
  2
*Paper_Space0
 70
     0
 10
0.0
 20
0.0
 30
0.0
  3
*Paper_Space0
  1

  0
ENDBLK
  5
25
330
23
100
AcDbEntity
  8
0
100
AcDbBlockEnd
  0
BLOCK
  5
88
330
87
100
AcDbEntity
  8
0
100
AcDbBlockBegin
  2
SW_CENTERMARKSYMBOL_0
 70
     0
 10
0.0
 20
0.0
 30
0.0
  3
SW_CENTERMARKSYMBOL_0
  1

  0
LINE
  5
8A
330
87
100
AcDbEntity
  8
FORMAT
 62
     0
100
AcDbLine
 10
0.0
 20
0.0
 30
0.0
 11
0.0
 21
2.5
 31
0.0
  0
LINE
  5
8B
330
87
100
AcDbEntity
  8
FORMAT
 62
     0
100
AcDbLine
 10
0.0
 20
0.0
 30
0.0
 11
-2.5
 21
0.0
 31
0.0
  0
LINE
  5
8C
330
87
100
AcDbEntity
  8
FORMAT
 62
     0
100
AcDbLine
 10
0.0
 20
0.0
 30
0.0
 11
0.0
 21
-2.5
 31
0.0
  0
LINE
  5
8D
330
87
100
AcDbEntity
  8
FORMAT
 62
     0
100
AcDbLine
 10
0.0
 20
0.0
 30
0.0
 11
2.5
 21
0.0
 31
0.0
  0
LINE
  5
8E
330
87
100
AcDbEntity
  8
FORMAT
 62
     0
100
AcDbLine
 10
0.0
 20
5.0
 30
0.0
 11
0.0
 21
53.5
 31
0.0
  0
LINE
  5
8F
330
87
100
AcDbEntity
  8
FORMAT
 62
     0
100
AcDbLine
 10
-5.0
 20
0.0
 30
0.0
 11
-53.5
 21
0.0
 31
0.0
  0
LINE
  5
90
330
87
100
AcDbEntity
  8
FORMAT
 62
     0
100
AcDbLine
 10
0.0
 20
-5.0
 30
0.0
 11
0.0
 21
-53.5
 31
0.0
  0
LINE
  5
91
330
87
100
AcDbEntity
  8
FORMAT
 62
     0
100
AcDbLine
 10
5.0
 20
0.0
 30
0.0
 11
53.5
 21
0.0
 31
0.0
  0
ENDBLK
  5
89
330
87
100
AcDbEntity
  8
0
100
AcDbBlockEnd
  0
ENDSEC
  0
SECTION
  2
ENTITIES
  0
CIRCLE
  5
83
330
1F
100
AcDbEntity
  8
0
  6
Continuous
 62
     7
370
    25
100
AcDbCircle
 10
142.9934680851
 20
119.1714893617
 30
0.0
 40
31.49999999999999
  0
CIRCLE
  5
84
330
1F
100
AcDbEntity
  8
0
  6
Continuous
 62
     7
370
    25
100
AcDbCircle
 10
142.9934680851
 20
119.1714893617
 30
0.0
 40
27.69999999999999
  0
CIRCLE
  5
85
330
1F
100
AcDbEntity
  8
0
  6
Continuous
 62
     7
370
    25
100
AcDbCircle
 10
142.9934680851
 20
119.1714893617
 30
0.0
 40
39.0
  0
CIRCLE
  5
86
330
1F
100
AcDbEntity
  8
0
  6
Continuous
 62
     7
370
    25
100
AcDbCircle
 10
142.9934680851
 20
119.1714893617
 30
0.0
 40
50.99999999999999
  0
INSERT
  5
92
330
1F
100
AcDbEntity
  8
FORMAT
 62
     7
100
AcDbBlockReference
  2
SW_CENTERMARKSYMBOL_0
 10
142.9934680851
 20
119.1714893617
 30
0.0
  0
LINE
  5
93
330
1F
100
AcDbEntity
  8
0
  6
Continuous
 62
     7
370
    25
100
AcDbLine
 10
193.9934680851
 20
206.9019033988
 30
0.0
 11
193.9934680851
 21
220.9019033988
 31
0.0
  0
LINE
  5
94
330
1F
100
AcDbEntity
  8
0
  6
Continuous
 62
     7
370
    25
100
AcDbLine
 10
91.9934680851
 20
220.9019033988
 30
0.0
 11
91.9934680851
 21
206.9019033988
 31
0.0
  0
LINE
  5
95
330
1F
100
AcDbEntity
  8
0
  6
Continuous
 62
     7
370
    25
100
AcDbLine
 10
181.9934680851
 20
220.9019033988
 30
0.0
 11
174.4934680851
 21
238.9019033988
 31
0.0
  0
LINE
  5
96
330
1F
100
AcDbEntity
  8
0
  6
Continuous
 62
     7
370
    25
100
AcDbLine
 10
111.4934680851
 20
238.9019033988
 30
0.0
 11
103.9934680851
 21
220.9019033988
 31
0.0
  0
LINE
  5
97
330
1F
100
AcDbEntity
  8
0
  6
Continuous
 62
     7
370
    25
100
AcDbLine
 10
174.4934680851
 20
238.9019033988
 30
0.0
 11
174.4934680851
 21
326.9019033988
 31
0.0
  0
LINE
  5
98
330
1F
100
AcDbEntity
  8
0
  6
Continuous
 62
     7
370
    25
100
AcDbLine
 10
111.4934680851
 20
326.9019033988
 30
0.0
 11
111.4934680851
 21
238.9019033988
 31
0.0
  0
LINE
  5
99
330
1F
100
AcDbEntity
  8
0
  6
Continuous
 62
     7
370
    25
100
AcDbLine
 10
193.9934680851
 20
206.9019033988
 30
0.0
 11
91.9934680851
 21
206.9019033988
 31
0.0
  0
LINE
  5
9A
330
1F
100
AcDbEntity
  8
0
  6
Continuous
 62
     7
370
    25
100
AcDbLine
 10
193.9934680851
 20
220.9019033988
 30
0.0
 11
91.9934680851
 21
220.9019033988
 31
0.0
  0
LINE
  5
9B
330
1F
100
AcDbEntity
  8
0
  6
Continuous
 62
     7
370
    25
100
AcDbLine
 10
174.4934680851
 20
238.9019033988
 30
0.0
 11
111.4934680851
 21
238.9019033988
 31
0.0
  0
LINE
  5
9C
330
1F
100
AcDbEntity
  8
0
  6
Continuous
 62
     7
370
    25
100
AcDbLine
 10
174.4934680851
 20
326.9019033988
 30
0.0
 11
111.4934680851
 21
326.9019033988
 31
0.0
  0
LINE
  5
9D
330
1F
100
AcDbEntity
  8
0
  6
Continuous
 62
     7
370
    25
100
AcDbLine
 10
29.8044535924
 20
170.1714893617
 30
0.0
 11
15.8044535924
 21
170.1714893617
 31
0.0
  0
LINE
  5
9E
330
1F
100
AcDbEntity
  8
0
  6
Continuous
 62
     7
370
    25
100
AcDbLine
 10
15.8044535924
 20
68.1714893617
 30
0.0
 11
29.8044535924
 21
68.1714893617
 31
0.0
  0
LINE
  5
9F
330
1F
100
AcDbEntity
  8
0
  6
Continuous
 62
     7
370
    25
100
AcDbLine
 10
15.8044535924
 20
158.1714893617
 30
0.0
 11
-2.1955464076
 21
150.6714893617
 31
0.0
  0
LINE
  5
A0
330
1F
100
AcDbEntity
  8
0
  6
Continuous
 62
     7
370
    25
100
AcDbLine
 10
-2.1955464076
 20
87.6714893617
 30
0.0
 11
15.8044535924
 21
80.1714893617
 31
0.0
  0
LINE
  5
A1
330
1F
100
AcDbEntity
  8
0
  6
Continuous
 62
     7
370
    25
100
AcDbLine
 10
-2.1955464076
 20
150.6714893617
 30
0.0
 11
-90.1955464076
 21
150.6714893617
 31
0.0
  0
LINE
  5
A2
330
1F
100
AcDbEntity
  8
0
  6
Continuous
 62
     7
370
    25
100
AcDbLine
 10
-90.1955464076
 20
87.6714893617
 30
0.0
 11
-2.1955464076
 21
87.6714893617
 31
0.0
  0
LINE
  5
A3
330
1F
100
AcDbEntity
  8
0
  6
Continuous
 62
     7
370
    25
100
AcDbLine
 10
29.8044535924
 20
170.1714893617
 30
0.0
 11
29.8044535924
 21
68.1714893617
 31
0.0
  0
LINE
  5
A4
330
1F
100
AcDbEntity
  8
0
  6
Continuous
 62
     7
370
    25
100
AcDbLine
 10
15.8044535924
 20
170.1714893617
 30
0.0
 11
15.8044535924
 21
68.1714893617
 31
0.0
  0
LINE
  5
A5
330
1F
100
AcDbEntity
  8
0
  6
Continuous
 62
     7
370
    25
100
AcDbLine
 10
-2.1955464076
 20
150.6714893617
 30
0.0
 11
-2.1955464076
 21
87.6714893617
 31
0.0
  0
LINE
  5
A6
330
1F
100
AcDbEntity
  8
0
  6
Continuous
 62
     7
370
    25
100
AcDbLine
 10
-90.1955464076
 20
150.6714893617
 30
0.0
 11
-90.1955464076
 21
87.6714893617
 31
0.0
  0
LINE
  5
A7
330
1F
100
AcDbEntity
  8
0
  6
Continuous
 62
     7
370
    25
100
AcDbLine
 10
270.4035956841
 20
68.1714893617
 30
0.0
 11
284.4035956841
 21
68.1714893617
 31
0.0
  0
LINE
  5
A8
330
1F
100
AcDbEntity
  8
0
  6
Continuous
 62
     7
370
    25
100
AcDbLine
 10
284.4035956841
 20
170.1714893617
 30
0.0
 11
270.4035956841
 21
170.1714893617
 31
0.0
  0
LINE
  5
A9
330
1F
100
AcDbEntity
  8
0
  6
Continuous
 62
     7
370
    25
100
AcDbLine
 10
284.4035956841
 20
80.1714893617
 30
0.0
 11
302.4035956841
 21
87.6714893617
 31
0.0
  0
LINE
  5
AA
330
1F
100
AcDbEntity
  8
0
  6
Continuous
 62
     7
370
    25
100
AcDbLine
 10
302.4035956841
 20
150.6714893617
 30
0.0
 11
284.4035956841
 21
158.1714893617
 31
0.0
  0
LINE
  5
AB
330
1F
100
AcDbEntity
  8
0
  6
Continuous
 62
     7
370
    25
100
AcDbLine
 10
302.4035956841
 20
87.6714893617
 30
0.0
 11
390.4035956841
 21
87.6714893617
 31
0.0
  0
LINE
  5
AC
330
1F
100
AcDbEntity
  8
0
  6
Continuous
 62
     7
370
    25
100
AcDbLine
 10
390.4035956841
 20
150.6714893617
 30
0.0
 11
302.4035956841
 21
150.6714893617
 31
0.0
  0
LINE
  5
AD
330
1F
100
AcDbEntity
  8
0
  6
Continuous
 62
     7
370
    25
100
AcDbLine
 10
270.4035956841
 20
119.1714893617
 30
0.0
 11
270.4035956841
 21
170.1714893617
 31
0.0
  0
LINE
  5
AE
330
1F
100
AcDbEntity
  8
0
  6
Continuous
 62
     7
370
    25
100
AcDbLine
 10
270.4035956841
 20
68.1714893617
 30
0.0
 11
270.4035956841
 21
119.1714893617
 31
0.0
  0
LINE
  5
AF
330
1F
100
AcDbEntity
  8
0
  6
Continuous
 62
     7
370
    25
100
AcDbLine
 10
284.4035956841
 20
119.1714893617
 30
0.0
 11
284.4035956841
 21
170.1714893617
 31
0.0
  0
LINE
  5
B0
330
1F
100
AcDbEntity
  8
0
  6
Continuous
 62
     7
370
    25
100
AcDbLine
 10
284.4035956841
 20
68.1714893617
 30
0.0
 11
284.4035956841
 21
119.1714893617
 31
0.0
  0
LINE
  5
B1
330
1F
100
AcDbEntity
  8
0
  6
Continuous
 62
     7
370
    25
100
AcDbLine
 10
302.4035956841
 20
119.1714893617
 30
0.0
 11
302.4035956841
 21
150.6714893617
 31
0.0
  0
LINE
  5
B2
330
1F
100
AcDbEntity
  8
0
  6
Continuous
 62
     7
370
    25
100
AcDbLine
 10
302.4035956841
 20
87.6714893617
 30
0.0
 11
302.4035956841
 21
119.1714893617
 31
0.0
  0
LINE
  5
B3
330
1F
100
AcDbEntity
  8
0
  6
Continuous
 62
     7
370
    25
100
AcDbLine
 10
390.4035956841
 20
119.1714893617
 30
0.0
 11
390.4035956841
 21
150.6714893617
 31
0.0
  0
LINE
  5
B4
330
1F
100
AcDbEntity
  8
0
  6
Continuous
 62
     7
370
    25
100
AcDbLine
 10
390.4035956841
 20
87.6714893617
 30
0.0
 11
390.4035956841
 21
119.1714893617
 31
0.0
  0
LINE
  5
B5
330
1F
100
AcDbEntity
  8
0
  6
Continuous
 62
     7
370
    25
100
AcDbLine
 10
91.9934680851
 20
16.0135522268
 30
0.0
 11
91.9934680851
 21
2.0135522268
 31
0.0
  0
LINE
  5
B6
330
1F
100
AcDbEntity
  8
0
  6
Continuous
 62
     7
370
    25
100
AcDbLine
 10
193.9934680851
 20
2.0135522268
 30
0.0
 11
193.9934680851
 21
16.0135522268
 31
0.0
  0
LINE
  5
B7
330
1F
100
AcDbEntity
  8
0
  6
Continuous
 62
     7
370
    25
100
AcDbLine
 10
103.9934680851
 20
2.0135522268
 30
0.0
 11
111.4934680851
 21
-15.9864477732
 31
0.0
  0
LINE
  5
B8
330
1F
100
AcDbEntity
  8
0
  6
Continuous
 62
     7
370
    25
100
AcDbLine
 10
174.4934680851
 20
-15.9864477732
 30
0.0
 11
181.9934680851
 21
2.0135522268
 31
0.0
  0
LINE
  5
B9
330
1F
100
AcDbEntity
  8
0
  6
Continuous
 62
     7
370
    25
100
AcDbLine
 10
111.4934680851
 20
-15.9864477732
 30
0.0
 11
111.4934680851
 21
-103.9864477732
 31
0.0
  0
LINE
  5
BA
330
1F
100
AcDbEntity
  8
0
  6
Continuous
 62
     7
370
    25
100
AcDbLine
 10
174.4934680851
 20
-103.9864477732
 30
0.0
 11
174.4934680851
 21
-15.9864477732
 31
0.0
  0
LINE
  5
BB
330
1F
100
AcDbEntity
  8
0
  6
Continuous
 62
     7
370
    25
100
AcDbLine
 10
91.9934680851
 20
16.0135522268
 30
0.0
 11
193.9934680851
 21
16.0135522268
 31
0.0
  0
LINE
  5
BC
330
1F
100
AcDbEntity
  8
0
  6
Continuous
 62
     7
370
    25
100
AcDbLine
 10
91.9934680851
 20
2.0135522268
 30
0.0
 11
193.9934680851
 21
2.0135522268
 31
0.0
  0
LINE
  5
BD
330
1F
100
AcDbEntity
  8
0
  6
Continuous
 62
     7
370
    25
100
AcDbLine
 10
111.4934680851
 20
-15.9864477732
 30
0.0
 11
174.4934680851
 21
-15.9864477732
 31
0.0
  0
LINE
  5
BE
330
1F
100
AcDbEntity
  8
0
  6
Continuous
 62
     7
370
    25
100
AcDbLine
 10
111.4934680851
 20
-103.9864477732
 30
0.0
 11
174.4934680851
 21
-103.9864477732
 31
0.0
  0
LINE
  5
BF
330
1F
100
AcDbEntity
  8
0
  6
Continuous
 62
     7
370
    25
100
AcDbLine
 10
343.1887092862
 20
-15.5946445805
 30
0.0
 11
280.9633125418
 21
20.3273123397
 31
0.0
  0
LINE
  5
C0
330
1F
100
AcDbEntity
  8
0
  6
Continuous
 62
     7
370
    25
100
AcDbLine
 10
249.4658724637
 20
-34.2337659903
 30
0.0
 11
311.6912692081
 21
-70.1557229105
 31
0.0
  0
LINE
  5
C1
330
1F
100
AcDbEntity
  8
0
  6
Continuous
 62
     7
370
    25
100
AcDbLine
 10
375.5653339273
 20
-11.7692215532
 30
0.0
 11
365.6658389907
 21
-6.0543647705
 31
0.0
  0
LINE
  5
C2
330
1F
100
AcDbEntity
  8
0
  6
Continuous
 62
     7
370
    25
100
AcDbLine
 10
314.6699836263
 20
-94.3913487333
 30
0.0
 11
324.5694785629
 21
-100.106205516
 31
0.0
  0
LINE
  5
C3
330
1F
100
AcDbEntity
  8
0
  6
Continuous
 62
     7
370
    25
100
AcDbLine
 10
353.0545121712
 20
-14.6292456938
 30
0.0
 11
340.8154574458
 21
-14.2245954553
 31
0.0
  0
LINE
  5
C4
330
1F
100
AcDbEntity
  8
0
  6
Continuous
 62
     7
370
    25
100
AcDbLine
 10
309.3180173678
 20
-68.7856737853
 30
0.0
 11
315.7889577246
 21
-79.1820738009
 31
0.0
  0
LWPOLYLINE
  5
C5
330
1F
100
AcDbEntity
  8
0
  6
Continuous
 62
     7
370
    25
100
AcDbPolyline
 90
       51
 70
   128
 43
0.0
 10
343.1887092862
 20
-15.5946445805
 10
343.4404046937
 20
-15.7446648874
 10
344.4003326683
 20
-16.4110802797
 10
345.2905669537
 20
-17.1862423496
 10
346.1074493865
 20
-18.0669657901
 10
346.8476232214
 20
-19.0496315194
 10
347.5080469253
 20
-20.1302015534
 10
348.0860066757
 20
-21.3042355981
 10
348.5791275119
 20
-22.5669092956
 10
348.9853830946
 20
-23.9130340489
 10
349.3031040325
 20
-25.3370783428
 10
349.5309847422
 20
-26.8331904736
 10
349.6680888129
 20
-28.3952225958
 10
349.7138528545
 20
-30.0167559843
 10
349.6680888129
 20
-31.6911274105
 10
349.5309847422
 20
-33.4114565233
 10
349.3031040325
 20
-35.1706741211
 10
348.9853830946
 20
-36.9615512016
 10
348.5791275119
 20
-38.7767286667
 10
348.0860066757
 20
-40.6087475629
 10
347.5080469253
 20
-42.4500797314
 10
346.8476232214
 20
-44.2931587436
 10
346.1074493865
 20
-46.1304109923
 10
345.2905669537
 20
-47.954286814
 10
344.4003326683
 20
-49.7572915118
 10
343.4404046937
 20
-51.5320161525
 10
342.4147275799
 20
-53.271168012
 10
341.3275160543
 20
-54.9676005422
 10
340.1832377022
 20
-56.6143427379
 10
338.9865946088
 20
-58.2046277823
 10
337.7425040372
 20
-59.7319208531
 10
336.4560782224
 20
-61.1899459753
 10
335.1326033641
 20
-62.5727118109
 10
333.7775179043
 20
-63.8745362787
 10
332.3963901799
 20
-65.0900699025
 10
330.9948955409
 20
-66.2143177941
 10
329.5787930294
 20
-67.2426601776
 10
328.1539017144
 20
-68.1708713736
 10
326.7260767799
 20
-68.9951371633
 10
325.3011854649
 20
-69.7120704617
 10
323.8850829534
 20
-70.318725236
 10
322.4835883144
 20
-70.8126086118
 10
321.10246059
 20
-71.1916911162
 10
319.7473751302
 20
-71.454415018
 10
318.4239002719
 20
-71.5997007282
 10
317.1374744571
 20
-71.6269512368
 10
315.8933838855
 20
-71.5360545655
 10
314.6967407921
 20
-71.3273842283
 10
313.55246244
 20
-71.0017976963
 10
312.4652509144
 20
-70.5606328744
 10
311.6912692081
 20
-70.1557229105
  0
LWPOLYLINE
  5
C6
330
1F
100
AcDbEntity
  8
0
  6
Continuous
 62
     7
370
    25
100
AcDbPolyline
 90
       99
 70
   128
 43
0.0
 10
242.9407288954
 20
-19.8116545865
 10
242.986492937
 20
-18.1372831602
 10
243.1235970077
 20
-16.4169540475
 10
243.3514777173
 20
-14.6577364496
 10
243.6691986553
 20
-12.8668593691
 10
244.075454238
 20
-11.051681904
 10
244.5685750742
 20
-9.2196630078
 10
245.1465348246
 20
-7.3783308393
 10
245.8069585285
 20
-5.5352518271
 10
246.5471323634
 20
-3.6979995784
 10
247.3640147962
 20
-1.8741237567
 10
248.2542490816
 20
-0.071119059
 10
249.2141770562
 20
1.7036055818
 10
250.2398541699
 20
3.4427574412
 10
251.3270656955
 20
5.1391899714
 10
252.4713440477
 20
6.7859321672
 10
253.6679871411
 20
8.3762172116
 10
254.9120777127
 20
9.9035102823
 10
256.1985035275
 20
11.3615354045
 10
257.5219783858
 20
12.7443012402
 10
258.8770638456
 20
14.046125708
 10
260.25819157
 20
15.2616593318
 10
261.659686209
 20
16.3859072234
 10
263.0757887205
 20
17.4142496069
 10
264.5006800355
 20
18.3424608029
 10
265.92850497
 20
19.1667265926
 10
267.353396285
 20
19.883659891
 10
268.7694987965
 20
20.4903146653
 10
270.1709934355
 20
20.9841980411
 10
271.5521211599
 20
21.3632805455
 10
272.9072066197
 20
21.6260044473
 10
274.230681478
 20
21.7712901575
 10
275.5171072927
 20
21.7985406661
 10
276.7611978644
 20
21.7076439948
 10
277.9578409578
 20
21.4989736575
 10
279.1021193099
 20
21.1733871255
 10
280.1893308355
 20
20.7322223037
 10
281.2150079493
 20
20.1772920328
 10
282.1749359238
 20
19.5108766405
 10
283.0651702093
 20
18.7357145706
 10
283.8820526421
 20
17.8549911301
 10
284.6222264769
 20
16.8723254008
 10
285.2826501809
 20
15.7917553668
 10
285.8606099313
 20
14.6177213221
 10
286.3537307674
 20
13.3550476246
 10
286.7599863502
 20
12.0089228713
 10
287.0777072881
 20
10.5848785774
 10
287.3055879978
 20
9.0887664466
 10
287.4426920685
 20
7.5267343244
 10
287.4884561101
 20
5.9052009359
 10
287.4426920685
 20
4.2308295097
 10
287.3055879978
 20
2.5105003969
 10
287.0777072881
 20
0.7512827991
 10
286.7599863502
 20
-1.0395942814
 10
286.3537307674
 20
-2.8547717465
 10
285.8606099313
 20
-4.6867906427
 10
285.2826501809
 20
-6.5281228112
 10
284.6222264769
 20
-8.3712018234
 10
283.8820526421
 20
-10.2084540721
 10
283.0651702093
 20
-12.0323298938
 10
282.1749359238
 20
-13.8353345916
 10
281.2150079493
 20
-15.6100592323
 10
280.1893308355
 20
-17.3492110918
 10
279.1021193099
 20
-19.045643622
 10
277.9578409578
 20
-20.6923858177
 10
276.7611978644
 20
-22.2826708621
 10
275.5171072927
 20
-23.8099639329
 10
274.230681478
 20
-25.2679890551
 10
272.9072066197
 20
-26.6507548907
 10
271.5521211599
 20
-27.9525793585
 10
270.1709934355
 20
-29.1681129823
 10
268.7694987965
 20
-30.2923608739
 10
267.353396285
 20
-31.3207032574
 10
265.92850497
 20
-32.2489144534
 10
264.5006800355
 20
-33.0731802431
 10
263.0757887205
 20
-33.7901135415
 10
261.659686209
 20
-34.3967683158
 10
260.25819157
 20
-34.8906516916
 10
258.8770638456
 20
-35.269734196
 10
257.5219783858
 20
-35.5324580978
 10
256.1985035275
 20
-35.677743808
 10
254.9120777127
 20
-35.7049943166
 10
253.6679871411
 20
-35.6140976453
 10
252.4713440477
 20
-35.4054273081
 10
251.3270656955
 20
-35.0798407761
 10
250.2398541699
 20
-34.6386759542
 10
249.2141770562
 20
-34.0837456834
 10
248.2542490816
 20
-33.4173302911
 10
247.3640147962
 20
-32.6421682211
 10
246.5471323634
 20
-31.7614447807
 10
245.8069585285
 20
-30.7787790513
 10
245.1465348246
 20
-29.6982090173
 10
244.5685750742
 20
-28.5241749726
 10
244.075454238
 20
-27.2615012751
 10
243.6691986553
 20
-25.9153765218
 10
243.3514777173
 20
-24.491332228
 10
243.1235970077
 20
-22.9952200971
 10
242.986492937
 20
-21.433187975
 10
242.9407288954
 20
-19.8116545865
  0
LWPOLYLINE
  5
C7
330
1F
100
AcDbEntity
  8
0
  6
Continuous
 62
     7
370
    25
100
AcDbPolyline
 90
       93
 70
   128
 43
0.0
 10
245.6277346639
 20
-18.260479174
 10
245.6733961503
 20
-16.6906001365
 10
245.8101677148
 20
-15.0753209696
 10
246.037411665
 20
-13.4221728505
 10
246.3540684849
 20
-11.7388635188
 10
246.7586617741
 20
-10.0332413398
 10
247.2493051319
 20
-8.3132587113
 10
247.8237109527
 20
-6.5869349863
 10
248.4792010911
 20
-4.8623190829
 10
249.2127193497
 20
-3.1474519567
 10
250.0208457277
 20
-1.4503291097
 10
250.8998123669
 20
0.2211366879
 10
251.845521119
 20
1.859152291
 10
252.8535626534
 20
3.4560805147
 10
253.919237015
 20
5.0044757424
 10
255.037575538
 20
6.4971186409
 10
256.2033640121
 20
7.9270498198
 10
257.4111669931
 20
9.28760228
 10
258.655353146
 20
10.5724324979
 10
259.9301215007
 20
11.7755500018
 10
261.2295284986
 20
12.8913453026
 10
262.5475157045
 20
13.9146160475
 10
263.8779380536
 20
14.840591276
 10
265.2145925027
 20
15.664953664
 10
266.5512469519
 20
16.3838596536
 10
267.881669301
 20
16.9939573732
 10
269.1996565069
 20
17.4924022655
 10
270.4990635048
 20
17.8768703505
 10
271.7738318595
 20
18.1455690604
 10
273.0180180124
 20
18.2972455979
 10
274.2258209934
 20
18.3311927767
 10
275.3916094674
 20
18.2472523197
 10
276.5099479905
 20
18.0458155958
 10
277.5756223521
 20
17.7278217962
 10
278.5836638864
 20
17.2947535546
 10
279.5293726386
 20
16.7486300352
 10
280.4083392778
 20
16.0919975179
 10
281.2164656558
 20
15.3279175265
 10
281.9499839144
 20
14.4599525548
 10
282.6054740528
 20
13.4921494561
 10
283.1798798735
 20
12.4290205752
 10
283.6705232314
 20
11.2755227097
 10
284.0751165206
 20
10.0370339992
 10
284.3917733405
 20
8.7193288496
 10
284.6190172907
 20
7.3285510108
 10
284.7557888551
 20
5.8711849309
 10
284.8014503416
 20
4.3540255235
 10
284.7557888551
 20
2.7841464859
 10
284.6190172907
 20
1.1688673191
 10
284.3917733405
 20
-0.4842808
 10
284.0751165206
 20
-2.1675901317
 10
283.6705232314
 20
-3.8732123108
 10
283.1798798735
 20
-5.5931949393
 10
282.6054740528
 20
-7.3195186643
 10
281.9499839144
 20
-9.0441345676
 10
281.2164656558
 20
-10.7590016939
 10
280.4083392778
 20
-12.4561245408
 10
279.5293726386
 20
-14.1275903384
 10
278.5836638864
 20
-15.7656059415
 10
277.5756223521
 20
-17.3625341652
 10
276.5099479905
 20
-18.9109293929
 10
275.3916094674
 20
-20.4035722914
 10
274.2258209934
 20
-21.8335034703
 10
273.0180180124
 20
-23.1940559306
 10
271.7738318595
 20
-24.4788861484
 10
270.4990635048
 20
-25.6820036524
 10
269.1996565069
 20
-26.7977989531
 10
267.881669301
 20
-27.821069698
 10
266.5512469519
 20
-28.7470449265
 10
265.2145925027
 20
-29.5714073145
 10
263.8779380536
 20
-30.2903133041
 10
262.5475157045
 20
-30.9004110237
 10
261.2295284986
 20
-31.3988559161
 10
259.9301215007
 20
-31.783324001
 10
258.655353146
 20
-32.052022711
 10
257.4111669931
 20
-32.2036992484
 10
256.2033640121
 20
-32.2376464273
 10
255.037575538
 20
-32.1537059702
 10
253.919237015
 20
-31.9522692464
 10
252.8535626534
 20
-31.6342754467
 10
251.845521119
 20
-31.2012072051
 10
250.8998123669
 20
-30.6550836857
 10
250.0208457277
 20
-29.9984511684
 10
249.2127193497
 20
-29.234371177
 10
248.4792010911
 20
-28.3664062053
 10
247.8237109527
 20
-27.3986031066
 10
247.2493051319
 20
-26.3354742258
 10
246.7586617741
 20
-25.1819763603
 10
246.3540684849
 20
-23.9434876497
 10
246.037411665
 20
-22.6257825002
 10
245.8101677148
 20
-21.2350046613
 10
245.6733961503
 20
-19.7776385815
 10
245.6277346639
 20
-18.260479174
  0
LWPOLYLINE
  5
C8
330
1F
100
AcDbEntity
  8
0
  6
Continuous
 62
     7
370
    25
100
AcDbPolyline
 90
       65
 70
   128
 43
0.0
 10
375.5653339273
 20
-11.7692215532
 10
375.7271230681
 20
-11.8638130998
 10
376.9678684022
 20
-12.6732878629
 10
378.1406608343
 20
-13.5920523202
 10
379.2425377888
 20
-14.6177855928
 10
380.2707158291
 20
-15.7478965894
 10
381.222597688
 20
-16.9795305516
 10
382.0957788294
 20
-18.3095762652
 10
382.8880535221
 20
-19.7346739191
 10
383.5974204112
 20
-21.2512235931
 10
384.2220875746
 20
-22.8553943511
 10
384.7604770488
 20
-24.5431339185
 10
385.2112288151
 20
-26.3101789186
 10
385.5732042356
 20
-28.1520656425
 10
385.8454889289
 20
-30.0641413245
 10
386.0273950802
 20
-32.0415758954
 10
386.1184631788
 20
-34.0793741838
 10
386.1184631788
 20
-36.1723885345
 10
386.0273950802
 20
-38.3153318115
 10
385.8454889289
 20
-40.5027907542
 10
385.5732042356
 20
-42.7292396513
 10
385.2112288151
 20
-44.9890542999
 10
384.7604770488
 20
-47.2765262119
 10
384.2220875746
 20
-49.5858770347
 10
383.5974204112
 20
-51.9112731478
 10
382.8880535221
 20
-54.2468403988
 10
382.0957788294
 20
-56.586678942
 10
381.222597688
 20
-58.9248781423
 10
380.2707158291
 20
-61.2555315056
 10
379.2425377888
 20
-63.5727515992
 10
378.1406608343
 20
-65.8706849239
 10
376.9678684022
 20
-68.1435267009
 10
375.7271230681
 20
-70.3855355345
 10
374.4215590623
 20
-72.5910479158
 10
373.0544743529
 20
-74.7544925292
 10
371.6293223144
 20
-76.8704043258
 10
370.1497030046
 20
-78.9334383287
 10
368.6193540703
 20
-80.938383135
 10
367.0421413057
 20
-82.8801740802
 10
365.4220488872
 20
-84.7539060318
 10
363.7631693087
 20
-86.5548457802
 10
362.0696930441
 20
-88.2784439953
 10
360.3458979614
 20
-89.9203467186
 10
358.5961385166
 20
-91.4764063611
 10
356.8248347539
 20
-92.9426921812
 10
355.0364611403
 20
-94.3155002136
 10
353.2355352628
 20
-95.5913626262
 10
351.4266064164
 20
-96.7670564797
 10
349.6142441124
 20
-97.8396118695
 10
347.8030265353
 20
-98.8063194274
 10
345.9975289779
 20
-99.6647371664
 10
344.2023122836
 20
-100.4126966488
 10
342.4219113258
 20
-101.0483084639
 10
340.6608235516
 20
-101.5699670011
 10
338.9234976217
 20
-101.9763545058
 10
337.2143221721
 20
-102.2664444077
 10
335.5376147284
 20
-102.4395039147
 10
333.8976107991
 20
-102.4950958634
 10
332.2984531764
 20
-102.4330798237
 10
330.7441814713
 20
-102.2536124536
 10
329.238721909
 20
-101.9571471031
 10
327.785877411
 20
-101.5444326694
 10
326.3893179886
 20
-101.0165117052
 10
325.0525714722
 20
-100.3747177844
 10
324.5694785629
 20
-100.106205516
  0
ARC
  5
C9
330
1F
100
AcDbEntity
  8
0
  6
Continuous
 62
     7
370
    25
100
AcDbCircle
 10
356.9146871357
 20
-71.1345282595
 30
0.0
 40
52.8093040234648
100
AcDbArc
 50
174.3388718797
 51
179.8988118846
  0
LWPOLYLINE
  5
CA
330
1F
100
AcDbEntity
  8
0
  6
Continuous
 62
     7
370
    25
100
AcDbPolyline
 90
       99
 70
   128
 43
0.0
 10
335.8603887588
 20
-11.3640951898
 10
336.0980340413
 20
-11.1948133922
 10
337.9035315987
 20
-9.968648023
 10
339.7147491758
 20
-8.8441682786
 10
341.5271114798
 20
-7.8242146925
 10
343.3360403261
 20
-6.9113637559
 10
345.1369662037
 20
-6.1079214095
 10
346.9253398173
 20
-5.4159172185
 10
348.69664358
 20
-4.8370992454
 10
350.4464030248
 20
-4.3729296347
 10
352.1701981075
 20
-4.0245809192
 10
353.8636743721
 20
-3.7929330578
 10
355.5225539506
 20
-3.6785712133
 10
357.1426463691
 20
-3.6817842735
 10
358.7198591337
 20
-3.802564122
 10
360.250208068
 20
-4.0406056584
 10
361.7298273778
 20
-4.3953075691
 10
363.1549794163
 20
-4.8657738463
 10
364.5220641257
 20
-5.4508160514
 10
365.8276281315
 20
-6.148956317
 10
367.0683734656
 20
-6.9584310802
 10
368.2411658977
 20
-7.8771955374
 10
369.3430428522
 20
-8.90292881
 10
370.3712208924
 20
-10.0330398066
 10
371.3231027514
 20
-11.2646737689
 10
372.1962838928
 20
-12.5947194824
 10
372.9885585855
 20
-14.0198171364
 10
373.6979254746
 20
-15.5363668104
 10
374.322592638
 20
-17.1405375683
 10
374.8609821122
 20
-18.8282771357
 10
375.3117338785
 20
-20.5953221359
 10
375.673709299
 20
-22.4372088598
 10
375.9459939922
 20
-24.3492845417
 10
376.1279001435
 20
-26.3267191126
 10
376.2189682422
 20
-28.364517401
 10
376.2189682422
 20
-30.4575317517
 10
376.1279001435
 20
-32.6004750287
 10
375.9459939922
 20
-34.7879339714
 10
375.673709299
 20
-37.0143828686
 10
375.3117338785
 20
-39.2741975171
 10
374.8609821122
 20
-41.5616694291
 10
374.322592638
 20
-43.8710202519
 10
373.6979254746
 20
-46.196416365
 10
372.9885585855
 20
-48.531983616
 10
372.1962838928
 20
-50.8718221593
 10
371.3231027514
 20
-53.2100213596
 10
370.3712208924
 20
-55.5406747228
 10
369.3430428522
 20
-57.8578948164
 10
368.2411658977
 20
-60.1558281412
 10
367.0683734656
 20
-62.4286699181
 10
365.8276281315
 20
-64.6706787517
 10
364.5220641257
 20
-66.8761911331
 10
363.1549794163
 20
-69.0396357465
 10
361.7298273778
 20
-71.155547543
 10
360.250208068
 20
-73.2185815459
 10
358.7198591337
 20
-75.2235263523
 10
357.1426463691
 20
-77.1653172975
 10
355.5225539506
 20
-79.039049249
 10
353.8636743721
 20
-80.8399889974
 10
352.1701981075
 20
-82.5635872126
 10
350.4464030248
 20
-84.2054899358
 10
348.69664358
 20
-85.7615495783
 10
346.9253398173
 20
-87.2278353984
 10
345.1369662037
 20
-88.6006434309
 10
343.3360403261
 20
-89.8765058435
 10
341.5271114798
 20
-91.052199697
 10
339.7147491758
 20
-92.1247550867
 10
337.9035315987
 20
-93.0914626447
 10
336.0980340413
 20
-93.9498803837
 10
334.302817347
 20
-94.697839866
 10
332.5224163891
 20
-95.3334516811
 10
330.761328615
 20
-95.8551102183
 10
329.0240026851
 20
-96.261497723
 10
327.3148272355
 20
-96.551587625
 10
325.6381197918
 20
-96.724647132
 10
323.9981158625
 20
-96.7802390807
 10
322.3989582398
 20
-96.718223041
 10
320.8446865347
 20
-96.5387556708
 10
319.3392269724
 20
-96.2422903203
 10
317.8863824744
 20
-95.8295758867
 10
316.489823052
 20
-95.3016549224
 10
315.1530765355
 20
-94.6598610017
 10
313.8795196627
 20
-93.9058153516
 10
312.6723695487
 20
-93.0414227569
 10
311.5346755594
 20
-92.0688667484
 10
310.4693116086
 20
-90.9906040869
 10
309.4789688982
 20
-89.8093585575
 10
308.5661491197
 20
-88.5281140889
 10
307.7331581352
 20
-87.1501072158
 10
306.9821001522
 20
-85.6788189032
 10
306.3148724082
 20
-84.117965753
 10
305.7331603786
 20
-82.4714906159
 10
305.2384335183
 20
-80.7435526308
 10
304.8319415503
 20
-78.9385167191
 10
304.5147113088
 20
-77.0609425581
 10
304.2875441447
 20
-75.1155730631
 10
304.151013902
 20
-73.1073224064
 10
304.105465468
 20
-71.0412636033
 10
304.105465468
 20
-71.0412636033
  0
LWPOLYLINE
  5
CB
330
1F
100
AcDbEntity
  8
0
  6
Continuous
 62
     7
370
    25
100
AcDbPolyline
 90
       67
 70
   128
 43
0.0
 10
353.0545121712
 20
-14.6292456938
 10
353.4950824938
 20
-14.6497500524
 10
354.863875315
 20
-14.7925018248
 10
356.1838496216
 20
-15.0529496732
 10
357.4506205919
 20
-15.430228416
 10
358.6599801399
 20
-15.9230847712
 10
359.807910895
 20
-16.5298815195
 10
360.8905995465
 20
-17.2486029432
 10
361.9044495118
 20
-18.076861522
 10
362.846092883
 20
-19.0119058641
 10
363.7124016157
 20
-20.0506298463
 10
364.5004979194
 20
-21.189582932
 10
365.2077638174
 20
-22.4249816336
 10
365.8318498435
 20
-23.7527220808
 10
366.3706828467
 20
-25.1683936534
 10
366.822472878
 20
-26.6672936328
 10
367.1857191363
 20
-28.244442824
 10
367.459214954
 20
-29.8946020959
 10
367.6420518056
 20
-31.6122897855
 10
367.7336223255
 20
-33.391799907
 10
367.7336223255
 20
-35.2272211067
 10
367.6420518056
 20
-37.1124563
 10
367.459214954
 20
-39.0412429251
 10
367.1857191363
 20
-41.0071737468
 10
366.822472878
 20
-43.0037181407
 10
366.3706828467
 20
-45.0242437871
 10
365.8318498435
 20
-47.0620387029
 10
365.2077638174
 20
-49.1103335385
 10
364.5004979194
 20
-51.1623240642
 10
363.7124016157
 20
-53.211193774
 10
362.846092883
 20
-55.2501365288
 10
361.9044495117
 20
-57.2723791657
 10
360.8905995465
 20
-59.2712039981
 10
359.807910895
 20
-61.2399711309
 10
358.6599801399
 20
-63.1721405177
 10
357.4506205919
 20
-65.0612936861
 10
356.1838496216
 20
-66.9011550592
 10
354.863875315
 20
-68.6856128026
 10
353.4950824938
 20
-70.4087391271
 10
352.0820181502
 20
-72.0648099804
 10
350.6293763418
 20
-73.6483240616
 10
349.1419825987
 20
-75.1540210962
 10
347.6247778932
 20
-76.5768993101
 10
346.0828022268
 20
-77.9122320449
 10
344.5211778876
 20
-79.1555834596
 10
342.9450924347
 20
-80.3028232658
 10
341.3597814653
 20
-81.3501404483
 10
339.7705112231
 20
-82.2940559247
 10
338.1825611041
 20
-83.1314341027
 10
336.6012061188
 20
-83.8594932962
 10
335.0316993694
 20
-84.4758149658
 10
333.4792545995
 20
-84.9783517529
 10
331.9490288746
 20
-85.3654342808
 10
330.4461054506
 20
-85.6357767003
 10
328.975476888
 20
-85.7884809611
 10
327.542028467
 20
-85.8230397949
 10
326.150521959
 20
-85.7393384009
 10
324.8055798087
 20
-85.5376548265
 10
323.5116697788
 20
-85.2186590444
 10
322.2730901082
 20
-84.7834107265
 10
321.093955234
 20
-84.2333557238
 10
319.9781821237
 20
-83.5703212639
 10
318.9294772634
 20
-82.7965098805
 10
317.9513243451
 20
-81.9144920972
 10
317.0469726944
 20
-80.9271978883
 10
316.2194264767
 20
-79.8379069461
 10
315.7889577246
 20
-79.1820738009
  0
ENDSEC
  0
SECTION
  2
OBJECTS
  0
DICTIONARY
  5
C
330
0
100
AcDbDictionary
281
     1
  3
ACAD_GROUP
350
D
  3
ACAD_LAYOUT
350
1A
  3
ACAD_MLINESTYLE
350
17
  3
ACAD_PLOTSETTINGS
350
19
  3
ACAD_PLOTSTYLENAME
350
E
  3
ACAD_SCALELIST
350
47
  0
DICTIONARY
  5
D
102
{ACAD_REACTORS
330
C
102
}
330
C
100
AcDbDictionary
281
     1
  0
DICTIONARY
  5
1A
102
{ACAD_REACTORS
330
C
102
}
330
C
100
AcDbDictionary
281
     1
  3
Layout1
350
1E
  3
Layout2
350
26
  3
Model
350
22
  0
DICTIONARY
  5
17
102
{ACAD_REACTORS
330
C
102
}
330
C
100
AcDbDictionary
281
     1
  3
Standard
350
18
  0
DICTIONARY
  5
19
102
{ACAD_REACTORS
330
C
102
}
330
C
100
AcDbDictionary
281
     1
  0
ACDBDICTIONARYWDFLT
  5
E
102
{ACAD_REACTORS
330
C
102
}
330
C
100
AcDbDictionary
281
     1
  3
Normal
350
F
100
AcDbDictionaryWithDefault
340
F
  0
DICTIONARY
  5
47
102
{ACAD_REACTORS
330
C
102
}
330
C
100
AcDbDictionary
281
     1
  3
A0
350
48
  3
A1
350
49
  3
A2
350
4A
  3
A3
350
4B
  3
A4
350
4C
  3
A5
350
4D
  3
A6
350
4E
  3
A7
350
4F
  3
A8
350
50
  3
A9
350
51
  3
B0
350
52
  3
B1
350
53
  3
B2
350
54
  3
B3
350
55
  3
B4
350
56
  3
B5
350
57
  3
B6
350
58
  3
B7
350
59
  3
B8
350
5A
  3
B9
350
5B
  3
C0
350
5C
  3
C1
350
5D
  3
C2
350
5E
  3
C3
350
5F
  3
C4
350
60
  3
C5
350
61
  3
C6
350
62
  3
C7
350
63
  3
C8
350
64
  3
C9
350
65
  3
D0
350
66
  3
D1
350
67
  3
D2
350
68
  0
LAYOUT
  5
1E
102
{ACAD_REACTORS
330
1A
102
}
330
1A
100
AcDbPlotSettings
  1

  2
none_device
  4

  6

 40
0.0
 41
0.0
 42
0.0
 43
0.0
 44
0.0
 45
0.0
 46
0.0
 47
0.0
 48
0.0
 49
0.0
140
0.0
141
0.0
142
1.0
143
1.0
 70
   688
 72
     1
 73
     0
 74
     5
  7

 75
    16
147
1.0
148
0.0
149
0.0
100
AcDbLayout
  1
Layout1
 70
     1
 71
     1
 10
0.0
 20
0.0
 11
420.0
 21
297.0
 12
0.0
 22
0.0
 32
0.0
 14
1.0000000000E+20
 24
1.0000000000E+20
 34
1.0000000000E+20
 15
-1.0000000000E+20
 25
-1.0000000000E+20
 35
-1.0000000000E+20
146
0.0
 13
0.0
 23
0.0
 33
0.0
 16
1.0
 26
0.0
 36
0.0
 17
0.0
 27
1.0
 37
0.0
 76
     0
330
1B
  0
LAYOUT
  5
26
102
{ACAD_REACTORS
330
1A
102
}
330
1A
100
AcDbPlotSettings
  1

  2
none_device
  4

  6

 40
0.0
 41
0.0
 42
0.0
 43
0.0
 44
0.0
 45
0.0
 46
0.0
 47
0.0
 48
0.0
 49
0.0
140
0.0
141
0.0
142
1.0
143
1.0
 70
   688
 72
     1
 73
     0
 74
     5
  7

 75
    16
147
1.0
148
0.0
149
0.0
100
AcDbLayout
  1
Layout2
 70
     1
 71
     2
 10
0.0
 20
0.0
 11
0.0
 21
0.0
 12
0.0
 22
0.0
 32
0.0
 14
0.0
 24
0.0
 34
0.0
 15
0.0
 25
0.0
 35
0.0
146
0.0
 13
0.0
 23
0.0
 33
0.0
 16
1.0
 26
0.0
 36
0.0
 17
0.0
 27
1.0
 37
0.0
 76
     0
330
23
  0
LAYOUT
  5
22
102
{ACAD_REACTORS
330
1A
102
}
330
1A
100
AcDbPlotSettings
  1

  2
none_device
  4
Letter_(8.50_x_11.00_Inches)
  6

 40
6.35
 41
6.35
 42
6.35000508
 43
6.35000508
 44
215.9
 45
279.4
 46
0.0
 47
0.0
 48
0.0
 49
0.0
140
0.0
141
0.0
142
1.0
143
1.0
 70
  1712
 72
     1
 73
     0
 74
     0
  7

 75
     0
147
1.0
148
0.0
149
0.0
100
AcDbLayout
  1
Model
 70
     1
 71
     0
 10
0.0
 20
0.0
 11
279.4
 21
215.9
 12
0.0
 22
0.0
 32
0.0
 14
0.0
 24
0.0
 34
0.0
 15
279.4
 25
215.9
 35
0.0
146
0.0
 13
0.0
 23
0.0
 33
0.0
 16
1.0
 26
0.0
 36
0.0
 17
0.0
 27
1.0
 37
0.0
 76
     0
330
1F
331
29
  0
MLINESTYLE
  5
18
102
{ACAD_REACTORS
330
17
102
}
330
17
100
AcDbMlineStyle
  2
Standard
 70
     0
  3

 62
   256
 51
90.0
 52
90.0
 71
     2
 49
0.5
 62
   256
  6
BYLAYER
 49
-0.5
 62
   256
  6
BYLAYER
  0
ACDBPLACEHOLDER
  5
F
102
{ACAD_REACTORS
330
E
102
}
330
E
  0
SCALE
  5
48
102
{ACAD_REACTORS
330
47
102
}
330
47
100
AcDbScale
 70
     0
300
1:1
140
1.0
141
1.0
290
     1
  0
SCALE
  5
49
102
{ACAD_REACTORS
330
47
102
}
330
47
100
AcDbScale
 70
     0
300
1:2
140
1.0
141
2.0
290
     0
  0
SCALE
  5
4A
102
{ACAD_REACTORS
330
47
102
}
330
47
100
AcDbScale
 70
     0
300
1:4
140
1.0
141
4.0
290
     0
  0
SCALE
  5
4B
102
{ACAD_REACTORS
330
47
102
}
330
47
100
AcDbScale
 70
     0
300
1:5
140
1.0
141
5.0
290
     0
  0
SCALE
  5
4C
102
{ACAD_REACTORS
330
47
102
}
330
47
100
AcDbScale
 70
     0
300
1:8
140
1.0
141
8.0
290
     0
  0
SCALE
  5
4D
102
{ACAD_REACTORS
330
47
102
}
330
47
100
AcDbScale
 70
     0
300
1:10
140
1.0
141
10.0
290
     0
  0
SCALE
  5
4E
102
{ACAD_REACTORS
330
47
102
}
330
47
100
AcDbScale
 70
     0
300
1:16
140
1.0
141
16.0
290
     0
  0
SCALE
  5
4F
102
{ACAD_REACTORS
330
47
102
}
330
47
100
AcDbScale
 70
     0
300
1:20
140
1.0
141
20.0
290
     0
  0
SCALE
  5
50
102
{ACAD_REACTORS
330
47
102
}
330
47
100
AcDbScale
 70
     0
300
1:30
140
1.0
141
30.0
290
     0
  0
SCALE
  5
51
102
{ACAD_REACTORS
330
47
102
}
330
47
100
AcDbScale
 70
     0
300
1:40
140
1.0
141
40.0
290
     0
  0
SCALE
  5
52
102
{ACAD_REACTORS
330
47
102
}
330
47
100
AcDbScale
 70
     0
300
1:50
140
1.0
141
50.0
290
     0
  0
SCALE
  5
53
102
{ACAD_REACTORS
330
47
102
}
330
47
100
AcDbScale
 70
     0
300
1:100
140
1.0
141
100.0
290
     0
  0
SCALE
  5
54
102
{ACAD_REACTORS
330
47
102
}
330
47
100
AcDbScale
 70
     0
300
2:1
140
2.0
141
1.0
290
     0
  0
SCALE
  5
55
102
{ACAD_REACTORS
330
47
102
}
330
47
100
AcDbScale
 70
     0
300
4:1
140
4.0
141
1.0
290
     0
  0
SCALE
  5
56
102
{ACAD_REACTORS
330
47
102
}
330
47
100
AcDbScale
 70
     0
300
8:1
140
8.0
141
1.0
290
     0
  0
SCALE
  5
57
102
{ACAD_REACTORS
330
47
102
}
330
47
100
AcDbScale
 70
     0
300
10:1
140
10.0
141
1.0
290
     0
  0
SCALE
  5
58
102
{ACAD_REACTORS
330
47
102
}
330
47
100
AcDbScale
 70
     0
300
100:1
140
100.0
141
1.0
290
     0
  0
SCALE
  5
59
102
{ACAD_REACTORS
330
47
102
}
330
47
100
AcDbScale
 70
     0
300
1/128" = 1'-0"
140
0.0078125
141
12.0
290
     0
  0
SCALE
  5
5A
102
{ACAD_REACTORS
330
47
102
}
330
47
100
AcDbScale
 70
     0
300
1/64" = 1'-0"
140
0.015625
141
12.0
290
     0
  0
SCALE
  5
5B
102
{ACAD_REACTORS
330
47
102
}
330
47
100
AcDbScale
 70
     0
300
1/32" = 1'-0"
140
0.03125
141
12.0
290
     0
  0
SCALE
  5
5C
102
{ACAD_REACTORS
330
47
102
}
330
47
100
AcDbScale
 70
     0
300
1/16" = 1'-0"
140
0.0625
141
12.0
290
     0
  0
SCALE
  5
5D
102
{ACAD_REACTORS
330
47
102
}
330
47
100
AcDbScale
 70
     0
300
3/32" = 1'-0"
140
0.09375
141
12.0
290
     0
  0
SCALE
  5
5E
102
{ACAD_REACTORS
330
47
102
}
330
47
100
AcDbScale
 70
     0
300
1/8" = 1'-0"
140
0.125
141
12.0
290
     0
  0
SCALE
  5
5F
102
{ACAD_REACTORS
330
47
102
}
330
47
100
AcDbScale
 70
     0
300
3/16" = 1'-0"
140
0.1875
141
12.0
290
     0
  0
SCALE
  5
60
102
{ACAD_REACTORS
330
47
102
}
330
47
100
AcDbScale
 70
     0
300
1/4" = 1'-0"
140
0.25
141
12.0
290
     0
  0
SCALE
  5
61
102
{ACAD_REACTORS
330
47
102
}
330
47
100
AcDbScale
 70
     0
300
3/8" = 1'-0"
140
0.375
141
12.0
290
     0
  0
SCALE
  5
62
102
{ACAD_REACTORS
330
47
102
}
330
47
100
AcDbScale
 70
     0
300
1/2" = 1'-0"
140
0.5
141
12.0
290
     0
  0
SCALE
  5
63
102
{ACAD_REACTORS
330
47
102
}
330
47
100
AcDbScale
 70
     0
300
3/4" = 1'-0"
140
0.75
141
12.0
290
     0
  0
SCALE
  5
64
102
{ACAD_REACTORS
330
47
102
}
330
47
100
AcDbScale
 70
     0
300
1" = 1'-0"
140
1.0
141
12.0
290
     0
  0
SCALE
  5
65
102
{ACAD_REACTORS
330
47
102
}
330
47
100
AcDbScale
 70
     0
300
1-1/2" = 1'-0"
140
1.5
141
12.0
290
     0
  0
SCALE
  5
66
102
{ACAD_REACTORS
330
47
102
}
330
47
100
AcDbScale
 70
     0
300
3" = 1'-0"
140
3.0
141
12.0
290
     0
  0
SCALE
  5
67
102
{ACAD_REACTORS
330
47
102
}
330
47
100
AcDbScale
 70
     0
300
6" = 1'-0"
140
6.0
141
12.0
290
     0
  0
SCALE
  5
68
102
{ACAD_REACTORS
330
47
102
}
330
47
100
AcDbScale
 70
     0
300
1'-0" = 1'-0"
140
12.0
141
12.0
290
     0
  0
ENDSEC
  0
EOF
